  0
SECTION
  2
HEADER
  9
$ACADVER
  1
AC1015
  9
$ACADMAINTVER
 70
     6
  9
$DWGCODEPAGE
  3
ANSI_1254
  9
$INSBASE
 10
0.0
 20
0.0
 30
0.0
  9
$EXTMIN
 10
0.0
 20
0.0
 30
0.0
  9
$EXTMAX
 10
279.4
 20
215.9
 30
0.0
  9
$LIMMIN
 10
0.0
 20
0.0
  9
$LIMMAX
 10
279.4
 20
215.9
  9
$ORTHOMODE
 70
     0
  9
$REGENMODE
 70
     1
  9
$FILLMODE
 70
     1
  9
$QTEXTMODE
 70
     0
  9
$MIRRTEXT
 70
     1
  9
$LTSCALE
 40
1.0
  9
$ATTMODE
 70
     1
  9
$TEXTSIZE
 40
3.5
  9
$TRACEWID
 40
1.0
  9
$TEXTSTYLE
  7
Standard
  9
$CLAYER
  8
0
  9
$CELTYPE
  6
ByLayer
  9
$CECOLOR
 62
   256
  9
$CELTSCALE
 40
1.0
  9
$DISPSILH
 70
     0
  9
$DIMSCALE
 40
1.0
  9
$DIMASZ
 40
3.5
  9
$DIMEXO
 40
1.0
  9
$DIMDLI
 40
3.75
  9
$DIMRND
 40
0.0
  9
$DIMDLE
 40
0.0
  9
$DIMEXE
 40
1.0
  9
$DIMTP
 40
0.0
  9
$DIMTM
 40
0.0
  9
$DIMTXT
 40
3.5
  9
$DIMCEN
 40
2.5
  9
$DIMTSZ
 40
0.0
  9
$DIMTOL
 70
     0
  9
$DIMLIM
 70
     0
  9
$DIMTIH
 70
     1
  9
$DIMTOH
 70
     1
  9
$DIMSE1
 70
     0
  9
$DIMSE2
 70
     0
  9
$DIMTAD
 70
     1
  9
$DIMZIN
 70
     0
  9
$DIMBLK
  1

  9
$DIMASO
 70
     1
  9
$DIMSHO
 70
     1
  9
$DIMPOST
  1

  9
$DIMAPOST
  1

  9
$DIMALT
 70
     0
  9
$DIMALTD
 70
     3
  9
$DIMALTF
 40
0.0393700787
  9
$DIMLFAC
 40
1.0
  9
$DIMTOFL
 70
     1
  9
$DIMTVP
 40
0.0
  9
$DIMTIX
 70
     0
  9
$DIMSOXD
 70
     0
  9
$DIMSAH
 70
     0
  9
$DIMBLK1
  1

  9
$DIMBLK2
  1

  9
$DIMSTYLE
  2
ISO-25
  9
$DIMCLRD
 70
     0
  9
$DIMCLRE
 70
     0
  9
$DIMCLRT
 70
     0
  9
$DIMTFAC
 40
1.0
  9
$DIMGAP
 40
1.524
  9
$DIMJUST
 70
     0
  9
$DIMSD1
 70
     0
  9
$DIMSD2
 70
     0
  9
$DIMTOLJ
 70
     0
  9
$DIMTZIN
 70
     0
  9
$DIMALTZ
 70
     0
  9
$DIMALTTZ
 70
     0
  9
$DIMUPT
 70
     0
  9
$DIMDEC
 70
     2
  9
$DIMTDEC
 70
     2
  9
$DIMALTU
 70
     2
  9
$DIMALTTD
 70
     3
  9
$DIMTXSTY
  7
Standard
  9
$DIMAUNIT
 70
     0
  9
$DIMADEC
 70
     2
  9
$DIMALTRND
 40
0.0
  9
$DIMAZIN
 70
     0
  9
$DIMDSEP
 70
    44
  9
$DIMATFIT
 70
     3
  9
$DIMFRAC
 70
     0
  9
$DIMLDRBLK
  1

  9
$DIMLUNIT
 70
     2
  9
$DIMLWD
 70
    -2
  9
$DIMLWE
 70
    -2
  9
$DIMTMOVE
 70
     0
  9
$LUNITS
 70
     2
  9
$LUPREC
 70
     2
  9
$SKETCHINC
 40
1.0
  9
$FILLETRAD
 40
10.0
  9
$AUNITS
 70
     0
  9
$AUPREC
 70
     2
  9
$MENU
  1
.
  9
$ELEVATION
 40
0.0
  9
$PELEVATION
 40
0.0
  9
$THICKNESS
 40
0.0
  9
$LIMCHECK
 70
     0
  9
$CHAMFERA
 40
0.0
  9
$CHAMFERB
 40
0.0
  9
$CHAMFERC
 40
0.0
  9
$CHAMFERD
 40
0.0
  9
$SKPOLY
 70
     0
  9
$TDCREATE
 40
2458985.699593947
  9
$TDUCREATE
 40
2458985.574593947
  9
$TDUPDATE
 40
2458985.699594202
  9
$TDUUPDATE
 40
2458985.574594202
  9
$TDINDWG
 40
0.0000000116
  9
$TDUSRTIMER
 40
0.0000000116
  9
$USRTIMER
 70
     1
  9
$ANGBASE
 50
0.0
  9
$ANGDIR
 70
     0
  9
$PDMODE
 70
     0
  9
$PDSIZE
 40
-1.0
  9
$PLINEWID
 40
0.0
  9
$SPLFRAME
 70
     0
  9
$SPLINETYPE
 70
     6
  9
$SPLINESEGS
 70
     8
  9
$HANDSEED
  5
F1
  9
$SURFTAB1
 70
     6
  9
$SURFTAB2
 70
     6
  9
$SURFTYPE
 70
     6
  9
$SURFU
 70
     6
  9
$SURFV
 70
     6
  9
$UCSBASE
  2

  9
$UCSNAME
  2

  9
$UCSORG
 10
0.0
 20
0.0
 30
0.0
  9
$UCSXDIR
 10
1.0
 20
0.0
 30
0.0
  9
$UCSYDIR
 10
0.0
 20
1.0
 30
0.0
  9
$UCSORTHOREF
  2

  9
$UCSORTHOVIEW
 70
     0
  9
$UCSORGTOP
 10
0.0
 20
0.0
 30
0.0
  9
$UCSORGBOTTOM
 10
0.0
 20
0.0
 30
0.0
  9
$UCSORGLEFT
 10
0.0
 20
0.0
 30
0.0
  9
$UCSORGRIGHT
 10
0.0
 20
0.0
 30
0.0
  9
$UCSORGFRONT
 10
0.0
 20
0.0
 30
0.0
  9
$UCSORGBACK
 10
0.0
 20
0.0
 30
0.0
  9
$PUCSBASE
  2

  9
$PUCSNAME
  2

  9
$PUCSORG
 10
0.0
 20
0.0
 30
0.0
  9
$PUCSXDIR
 10
1.0
 20
0.0
 30
0.0
  9
$PUCSYDIR
 10
0.0
 20
1.0
 30
0.0
  9
$PUCSORTHOREF
  2

  9
$PUCSORTHOVIEW
 70
     0
  9
$PUCSORGTOP
 10
0.0
 20
0.0
 30
0.0
  9
$PUCSORGBOTTOM
 10
0.0
 20
0.0
 30
0.0
  9
$PUCSORGLEFT
 10
0.0
 20
0.0
 30
0.0
  9
$PUCSORGRIGHT
 10
0.0
 20
0.0
 30
0.0
  9
$PUCSORGFRONT
 10
0.0
 20
0.0
 30
0.0
  9
$PUCSORGBACK
 10
0.0
 20
0.0
 30
0.0
  9
$USERI1
 70
     0
  9
$USERI2
 70
     0
  9
$USERI3
 70
     0
  9
$USERI4
 70
     0
  9
$USERI5
 70
     0
  9
$USERR1
 40
0.0
  9
$USERR2
 40
0.0
  9
$USERR3
 40
0.0
  9
$USERR4
 40
0.0
  9
$USERR5
 40
0.0
  9
$WORLDVIEW
 70
     1
  9
$SHADEDGE
 70
     3
  9
$SHADEDIF
 70
    70
  9
$TILEMODE
 70
     1
  9
$MAXACTVP
 70
    64
  9
$PINSBASE
 10
0.0
 20
0.0
 30
0.0
  9
$PLIMCHECK
 70
     0
  9
$PEXTMIN
 10
1.0000000000E+20
 20
1.0000000000E+20
 30
1.0000000000E+20
  9
$PEXTMAX
 10
-1.0000000000E+20
 20
-1.0000000000E+20
 30
-1.0000000000E+20
  9
$PLIMMIN
 10
0.0
 20
0.0
  9
$PLIMMAX
 10
420.0
 20
297.0
  9
$UNITMODE
 70
     0
  9
$VISRETAIN
 70
     1
  9
$PLINEGEN
 70
     0
  9
$PSLTSCALE
 70
     1
  9
$TREEDEPTH
 70
  3020
  9
$CMLSTYLE
  2
Standard
  9
$CMLJUST
 70
     0
  9
$CMLSCALE
 40
20.0
  9
$PROXYGRAPHICS
 70
     1
  9
$MEASUREMENT
 70
     1
  9
$CELWEIGHT
370
    -1
  9
$ENDCAPS
280
     0
  9
$JOINSTYLE
280
     0
  9
$LWDISPLAY
290
     1
  9
$INSUNITS
 70
     4
  9
$HYPERLINKBASE
  1

  9
$STYLESHEET
  1

  9
$XEDIT
290
     1
  9
$CEPSNTYPE
380
     0
  9
$PSTYLEMODE
290
     1
  9
$FINGERPRINTGUID
  2
{fdbe7b2a-194e-403b-b18a-9f03542347cc}
  9
$VERSIONGUID
  2
{FAEB1C32-E019-11D5-929B-00C0DF256EC4}
  9
$EXTNAMES
290
     1
  9
$PSVPSCALE
 40
0.0
  9
$OLESTARTUP
290
     0
  0
ENDSEC
  0
SECTION
  2
CLASSES
  0
CLASS
  1
ACDBDICTIONARYWDFLT
  2
AcDbDictionaryWithDefault
  3
ObjectDBX Classes
 90
        0
280
     0
281
     0
  0
CLASS
  1
VISUALSTYLE
  2
AcDbVisualStyle
  3
ObjectDBX Classes
 90
     4095
280
     0
281
     0
  0
CLASS
  1
MATERIAL
  2
AcDbMaterial
  3
ObjectDBX Classes
 90
     1153
280
     0
281
     0
  0
CLASS
  1
SCALE
  2
AcDbScale
  3
ObjectDBX Classes
 90
     1153
280
     0
281
     0
  0
CLASS
  1
TABLESTYLE
  2
AcDbTableStyle
  3
ObjectDBX Classes
 90
     4095
280
     0
281
     0
  0
CLASS
  1
MLEADERSTYLE
  2
AcDbMLeaderStyle
  3
ACDB_MLEADERSTYLE_CLASS
 90
     4095
280
     0
281
     0
  0
CLASS
  1
SUN
  2
AcDbSun
  3
SCENEOE
 90
     1153
280
     0
281
     0
  0
CLASS
  1
ACDBPLACEHOLDER
  2
AcDbPlaceHolder
  3
ObjectDBX Classes
 90
        0
280
     0
281
     0
  0
CLASS
  1
LAYOUT
  2
AcDbLayout
  3
ObjectDBX Classes
 90
        0
280
     0
281
     0
  0
ENDSEC
  0
SECTION
  2
TABLES
  0
TABLE
  2
VPORT
  5
8
330
0
100
AcDbSymbolTable
 70
     1
  0
VPORT
  5
29
330
8
100
AcDbSymbolTableRecord
100
AcDbViewportTableRecord
  2
*Active
 70
     0
 10
0.0
 20
0.0
 11
1.0
 21
1.0
 12
139.7
 22
107.95
 13
0.0
 23
0.0
 14
10.0
 24
10.0
 15
10.0
 25
10.0
 16
0.0
 26
0.0
 36
1.0
 17
0.0
 27
0.0
 37
0.0
 40
215.9
 41
1.2941176471
 42
50.0
 43
0.0
 44
0.0
 50
0.0
 51
0.0
 71
     0
 72
  2000
 73
     1
 74
     3
 75
     0
 76
     0
 77
     0
 78
     0
281
     0
 65
     1
110
0.0
120
0.0
130
0.0
111
1.0
121
0.0
131
0.0
112
0.0
122
1.0
132
0.0
 79
     0
146
0.0
  0
ENDTAB
  0
TABLE
  2
LTYPE
  5
5
330
0
100
AcDbSymbolTable
 70
     6
  0
LTYPE
  5
14
330
5
100
AcDbSymbolTableRecord
100
AcDbLinetypeTableRecord
  2
ByBlock
 70
     0
  3

 72
    65
 73
     0
 40
0.0
  0
LTYPE
  5
15
330
5
100
AcDbSymbolTableRecord
100
AcDbLinetypeTableRecord
  2
ByLayer
 70
     0
  3

 72
    65
 73
     0
 40
0.0
  0
LTYPE
  5
16
330
5
100
AcDbSymbolTableRecord
100
AcDbLinetypeTableRecord
  2
Continuous
 70
     0
  3
Solid line
 72
    65
 73
     0
 40
0.0
  0
LTYPE
  5
6E
330
5
100
AcDbSymbolTableRecord
100
AcDbLinetypeTableRecord
  2
HIDDEN
 70
     0
  3
Hidden __ __ __ __ __ __ __ __ __ __ __ __ __ __
 72
    65
 73
     2
 40
1.905
 49
1.27
 74
     0
 49
-0.635
 74
     0
  0
LTYPE
  5
6F
330
5
100
AcDbSymbolTableRecord
100
AcDbLinetypeTableRecord
  2
PHANTOM
 70
     0
  3
Phantom ______  __  __  ______  __  __  ______
 72
    65
 73
     6
 40
12.7
 49
6.35
 74
     0
 49
-1.27
 74
     0
 49
1.27
 74
     0
 49
-1.27
 74
     0
 49
1.27
 74
     0
 49
-1.27
 74
     0
  0
LTYPE
  5
70
330
5
100
AcDbSymbolTableRecord
100
AcDbLinetypeTableRecord
  2
CENTER
 70
     0
  3
Center ____ _ ____ _ ____ _ ____ _ ____ _ ____
 72
    65
 73
     4
 40
10.16
 49
6.35
 74
     0
 49
-1.27
 74
     0
 49
1.27
 74
     0
 49
-1.27
 74
     0
  0
LTYPE
  5
71
330
5
100
AcDbSymbolTableRecord
100
AcDbLinetypeTableRecord
  2
CENTERX2
 70
     0
  3
Center (2x) ________  __  ________  __  _____
 72
    65
 73
     4
 40
20.32
 49
12.7
 74
     0
 49
-2.54
 74
     0
 49
2.54
 74
     0
 49
-2.54
 74
     0
  0
LTYPE
  5
72
330
5
100
AcDbSymbolTableRecord
100
AcDbLinetypeTableRecord
  2
DOT2
 70
     0
  3
Dot (.5x) ........................................
 72
    65
 73
     2
 40
0.635
 49
0.0
 74
     0
 49
-0.635
 74
     0
  0
ENDTAB
  0
TABLE
  2
LAYER
  5
2
330
0
100
AcDbSymbolTable
 70
    17
  0
LAYER
  5
10
330
2
100
AcDbSymbolTableRecord
100
AcDbLayerTableRecord
  2
0
 70
     0
 62
     7
  6
Continuous
370
    -3
390
F
  0
LAYER
  5
73
330
2
100
AcDbSymbolTableRecord
100
AcDbLayerTableRecord
  2
FORMAT
 70
     0
 62
     7
  6
Continuous
370
    -3
390
F
  0
LAYER
  5
74
330
2
100
AcDbSymbolTableRecord
100
AcDbLayerTableRecord
  2
YARDIMCI_GEOMETRI
 70
     0
 62
    -6
  6
Continuous
290
     0
370
    -3
390
F
  0
LAYER
  5
75
330
2
100
AcDbSymbolTableRecord
100
AcDbLayerTableRecord
  2
SAYFA_CERCEVESI
 70
     0
 62
     7
  6
Continuous
370
    25
390
F
  0
LAYER
  5
76
330
2
100
AcDbSymbolTableRecord
100
AcDbLayerTableRecord
  2
ANTET
 70
     0
 62
     7
  6
Continuous
370
    -3
390
F
  0
LAYER
  5
77
330
2
100
AcDbSymbolTableRecord
100
AcDbLayerTableRecord
  2
OLCU
 70
     0
 62
   150
  6
Continuous
370
    -3
390
F
  0
LAYER
  5
78
330
2
100
AcDbSymbolTableRecord
100
AcDbLayerTableRecord
  2
METIN
 70
     0
 62
    96
  6
Continuous
370
    -3
390
F
  0
LAYER
  5
79
330
2
100
AcDbSymbolTableRecord
100
AcDbLayerTableRecord
  2
BALON
 70
     0
 62
     5
  6
Continuous
370
    -3
390
F
  0
LAYER
  5
7A
330
2
100
AcDbSymbolTableRecord
100
AcDbLayerTableRecord
  2
VURGU
 70
     0
 62
     7
  6
Continuous
370
    -3
390
F
  0
LAYER
  5
7B
330
2
100
AcDbSymbolTableRecord
100
AcDbLayerTableRecord
  2
SILIK
 70
     0
 62
     7
  6
Continuous
370
    -3
390
F
  0
LAYER
  5
7C
330
2
100
AcDbSymbolTableRecord
100
AcDbLayerTableRecord
  2
MODEL
 70
     0
 62
     7
  6
Continuous
370
    -3
390
F
  0
LAYER
  5
7D
330
2
100
AcDbSymbolTableRecord
100
AcDbLayerTableRecord
  2
DETAYLANDıRMA
 70
     0
 62
   190
  6
Continuous
370
    -3
390
F
  0
LAYER
  5
7E
330
2
100
AcDbSymbolTableRecord
100
AcDbLayerTableRecord
  2
TOLERANS
 70
     0
 62
   230
  6
Continuous
370
    -3
390
F
  0
LAYER
  5
7F
330
2
100
AcDbSymbolTableRecord
100
AcDbLayerTableRecord
  2
MERKEZ_CIZGILERI
 70
     0
 62
    30
  6
Continuous
370
    -3
390
F
  0
LAYER
  5
80
330
2
100
AcDbSymbolTableRecord
100
AcDbLayerTableRecord
  2
KESIT-DETAY_CIZGILERI
 70
     0
 62
     7
  6
Continuous
370
    -3
390
F
  0
LAYER
  5
81
330
2
100
AcDbSymbolTableRecord
100
AcDbLayerTableRecord
  2
\U+041E\U+0421\U+0415\U+0412\U+042B\U+0415
 70
     0
 62
     7
  6
Continuous
370
    -3
390
F
  0
LAYER
  5
82
330
2
100
AcDbSymbolTableRecord
100
AcDbLayerTableRecord
  2
\U+0412\U+041E\U+0414\U+042F\U+041D\U+042B\U+0415_\U+0417\U+041D\U+0410\U+041A\U+0418
 70
     0
 62
    11
  6
Continuous
370
    -3
390
F
  0
ENDTAB
  0
TABLE
  2
STYLE
  5
3
330
0
100
AcDbSymbolTable
 70
     1
  0
STYLE
  5
11
330
3
100
AcDbSymbolTableRecord
100
AcDbTextStyleTableRecord
  2
Standard
 70
     0
 40
0.0
 41
1.0
 50
0.0
 71
     0
 42
3.5
  3
txt
  4

  0
ENDTAB
  0
TABLE
  2
VIEW
  5
6
330
0
100
AcDbSymbolTable
 70
     0
  0
ENDTAB
  0
TABLE
  2
UCS
  5
7
330
0
100
AcDbSymbolTable
 70
     0
  0
ENDTAB
  0
TABLE
  2
APPID
  5
9
330
0
100
AcDbSymbolTable
 70
     1
  0
APPID
  5
12
330
9
100
AcDbSymbolTableRecord
100
AcDbRegAppTableRecord
  2
ACAD
 70
     0
  0
ENDTAB
  0
TABLE
  2
DIMSTYLE
  5
A
330
0
100
AcDbSymbolTable
 70
     1
100
AcDbDimStyleTable
  0
DIMSTYLE
105
27
330
A
100
AcDbSymbolTableRecord
100
AcDbDimStyleTableRecord
  2
ISO-25
 70
     0
 41
2.5
 42
0.625
 43
3.75
 44
1.25
 73
     0
 74
     0
 77
     1
 78
     8
140
2.5
141
2.5
143
0.0393700787
147
0.625
171
     3
172
     1
178
     0
271
     2
272
     2
274
     3
278
    44
283
     0
284
     8
340
11
  0
ENDTAB
  0
TABLE
  2
BLOCK_RECORD
  5
1
330
0
100
AcDbSymbolTable
 70
     2
  0
BLOCK_RECORD
  5
1F
330
1
100
AcDbSymbolTableRecord
100
AcDbBlockTableRecord
  2
*Model_Space
340
22
  0
BLOCK_RECORD
  5
1B
330
1
100
AcDbSymbolTableRecord
100
AcDbBlockTableRecord
  2
*Paper_Space
340
1E
  0
BLOCK_RECORD
  5
23
330
1
100
AcDbSymbolTableRecord
100
AcDbBlockTableRecord
  2
*Paper_Space0
340
26
  0
BLOCK_RECORD
  5
88
330
1
100
AcDbSymbolTableRecord
100
AcDbBlockTableRecord
  2
SW_CENTERMARKSYMBOL_0
340
0
102
{BLKREFS
331
93
102
}
  0
ENDTAB
  0
ENDSEC
  0
SECTION
  2
BLOCKS
  0
BLOCK
  5
20
330
1F
100
AcDbEntity
  8
0
100
AcDbBlockBegin
  2
*Model_Space
 70
     0
 10
0.0
 20
0.0
 30
0.0
  3
*Model_Space
  1

  0
ENDBLK
  5
21
330
1F
100
AcDbEntity
  8
0
100
AcDbBlockEnd
  0
BLOCK
  5
1C
330
1B
100
AcDbEntity
 67
     1
  8
0
100
AcDbBlockBegin
  2
*Paper_Space
 70
     0
 10
0.0
 20
0.0
 30
0.0
  3
*Paper_Space
  1

  0
ENDBLK
  5
1D
330
1B
100
AcDbEntity
 67
     1
  8
0
100
AcDbBlockEnd
  0
BLOCK
  5
24
330
23
100
AcDbEntity
  8
0
100
AcDbBlockBegin
  2
*Paper_Space0
 70
     0
 10
0.0
 20
0.0
 30
0.0
  3
*Paper_Space0
  1

  0
ENDBLK
  5
25
330
23
100
AcDbEntity
  8
0
100
AcDbBlockEnd
  0
BLOCK
  5
89
330
88
100
AcDbEntity
  8
0
100
AcDbBlockBegin
  2
SW_CENTERMARKSYMBOL_0
 70
     0
 10
0.0
 20
0.0
 30
0.0
  3
SW_CENTERMARKSYMBOL_0
  1

  0
LINE
  5
8B
330
88
100
AcDbEntity
  8
FORMAT
 62
     0
100
AcDbLine
 10
0.0
 20
0.0
 30
0.0
 11
0.0
 21
2.5
 31
0.0
  0
LINE
  5
8C
330
88
100
AcDbEntity
  8
FORMAT
 62
     0
100
AcDbLine
 10
0.0
 20
0.0
 30
0.0
 11
-2.5
 21
0.0
 31
0.0
  0
LINE
  5
8D
330
88
100
AcDbEntity
  8
FORMAT
 62
     0
100
AcDbLine
 10
0.0
 20
0.0
 30
0.0
 11
0.0
 21
-2.5
 31
0.0
  0
LINE
  5
8E
330
88
100
AcDbEntity
  8
FORMAT
 62
     0
100
AcDbLine
 10
0.0
 20
0.0
 30
0.0
 11
2.5
 21
0.0
 31
0.0
  0
LINE
  5
8F
330
88
100
AcDbEntity
  8
FORMAT
 62
     0
100
AcDbLine
 10
0.0
 20
5.0
 30
0.0
 11
0.0
 21
115.0
 31
0.0
  0
LINE
  5
90
330
88
100
AcDbEntity
  8
FORMAT
 62
     0
100
AcDbLine
 10
-5.0
 20
0.0
 30
0.0
 11
-115.0
 21
0.0
 31
0.0
  0
LINE
  5
91
330
88
100
AcDbEntity
  8
FORMAT
 62
     0
100
AcDbLine
 10
0.0
 20
-5.0
 30
0.0
 11
0.0
 21
-115.0
 31
0.0
  0
LINE
  5
92
330
88
100
AcDbEntity
  8
FORMAT
 62
     0
100
AcDbLine
 10
5.0
 20
0.0
 30
0.0
 11
115.0
 21
0.0
 31
0.0
  0
ENDBLK
  5
8A
330
88
100
AcDbEntity
  8
0
100
AcDbBlockEnd
  0
ENDSEC
  0
SECTION
  2
ENTITIES
  0
CIRCLE
  5
83
330
1F
100
AcDbEntity
  8
0
  6
Continuous
 62
     7
370
    25
100
AcDbCircle
 10
139.395004093
 20
107.5851680021
 30
0.0
 40
112.5
  0
CIRCLE
  5
84
330
1F
100
AcDbEntity
  8
0
  6
Continuous
 62
     7
370
    25
100
AcDbCircle
 10
139.395004093
 20
107.5851680021
 30
0.0
 40
92.00000000000001
  0
CIRCLE
  5
85
330
1F
100
AcDbEntity
  8
0
  6
Continuous
 62
     7
370
    25
100
AcDbCircle
 10
139.395004093
 20
107.5851680021
 30
0.0
 40
91.25278690283139
  0
CIRCLE
  5
86
330
1F
100
AcDbEntity
  8
0
  6
Continuous
 62
     7
370
    25
100
AcDbCircle
 10
139.395004093
 20
107.5851680021
 30
0.0
 40
45.74721309716864
  0
CIRCLE
  5
87
330
1F
100
AcDbEntity
  8
0
  6
Continuous
 62
     7
370
    25
100
AcDbCircle
 10
139.395004093
 20
107.5851680021
 30
0.0
 40
45.00000000000001
  0
INSERT
  5
93
330
1F
100
AcDbEntity
  8
FORMAT
 62
     7
100
AcDbBlockReference
  2
SW_CENTERMARKSYMBOL_0
 10
139.395004093
 20
107.5851680021
 30
0.0
  0
LINE
  5
94
330
1F
100
AcDbEntity
  8
0
  6
Continuous
 62
     7
370
    25
100
AcDbLine
 10
-206.7660208715
 20
220.0851650219
 30
0.0
 11
-326.1976692749
 21
220.0851650219
 31
0.0
  0
LINE
  5
95
330
1F
100
AcDbEntity
  8
0
  6
Continuous
 62
     7
370
    25
100
AcDbLine
 10
-326.1976692749
 20
-4.9148290177
 30
0.0
 11
-206.7660208715
 21
-4.9148290177
 31
0.0
  0
ARC
  5
96
330
1F
100
AcDbEntity
  8
0
  6
Continuous
 62
     7
370
    25
100
AcDbCircle
 10
-206.7660203948
 20
218.0851680021
 30
0.0
 40
2.0
100
AcDbArc
 50
58.272345007
 51
90.0
  0
ARC
  5
97
330
1F
100
AcDbEntity
  8
0
  6
Continuous
 62
     7
370
    25
100
AcDbCircle
 10
-206.7660203948
 20
-2.9148319979
 30
0.0
 40
2.000000000000002
100
AcDbArc
 50
270.0
 51
301.727654993
  0
LINE
  5
98
330
1F
100
AcDbEntity
  8
0
  6
Continuous
 62
     7
370
    25
100
AcDbLine
 10
-205.7142559362
 20
-4.615948977
 30
0.0
 11
-113.6810857726
 21
52.2862845342
 31
0.0
  0
LINE
  5
99
330
1F
100
AcDbEntity
  8
0
  6
Continuous
 62
     7
370
    25
100
AcDbLine
 10
-113.6810857726
 20
162.88405147
 30
0.0
 11
-205.7142559362
 21
219.7862849812
 31
0.0
  0
ARC
  5
9A
330
1F
100
AcDbEntity
  8
0
  6
Continuous
 62
     7
370
    25
100
AcDbCircle
 10
-112.6293201618
 20
164.5851680021
 30
0.0
 40
2.0
100
AcDbArc
 50
238.272345007
 51
270.0
  0
ARC
  5
9B
330
1F
100
AcDbEntity
  8
0
  6
Continuous
 62
     7
370
    25
100
AcDbCircle
 10
-112.6293201618
 20
50.5851680021
 30
0.0
 40
1.99999999999999
100
AcDbArc
 50
90.0
 51
121.727654993
  0
LINE
  5
9C
330
1F
100
AcDbEntity
  8
0
  6
Continuous
 62
     7
370
    25
100
AcDbLine
 10
-31.1976674867
 20
162.5851677041
 30
0.0
 11
-112.6293208373
 21
162.5851677041
 31
0.0
  0
LINE
  5
9D
330
1F
100
AcDbEntity
  8
0
  6
Continuous
 62
     7
370
    25
100
AcDbLine
 10
-112.6293208373
 20
52.5851683001
 30
0.0
 11
-31.1976674867
 21
52.5851683001
 31
0.0
  0
LINE
  5
9E
330
1F
100
AcDbEntity
  8
0
  6
Continuous
 62
     7
370
    25
100
AcDbLine
 10
-326.1976692749
 20
220.0851650219
 30
0.0
 11
-326.1976692749
 21
-4.9148290177
 31
0.0
  0
LINE
  5
9F
330
1F
100
AcDbEntity
  8
0
  6
Continuous
 62
     7
370
    25
100
AcDbLine
 10
-31.1976674867
 20
162.5851677041
 30
0.0
 11
-31.1976674867
 21
52.5851683001
 31
0.0
  0
LINE
  5
A0
330
1F
100
AcDbEntity
  8
0
  6
Continuous
 62
     1
370
    25
100
AcDbLine
 10
-206.7660208715
 20
220.0851650219
 30
0.0
 11
-206.7660208715
 21
-4.9148290177
 31
0.0
  0
LINE
  5
A1
330
1F
100
AcDbEntity
  8
0
  6
Continuous
 62
     1
370
    25
100
AcDbLine
 10
-205.7142559362
 20
219.7862849812
 30
0.0
 11
-205.7142559362
 21
-4.615948977
 31
0.0
  0
LINE
  5
A2
330
1F
100
AcDbEntity
  8
0
  6
Continuous
 62
     1
370
    25
100
AcDbLine
 10
-113.6810857726
 20
162.88405147
 30
0.0
 11
-113.6810857726
 21
52.2862845342
 31
0.0
  0
LINE
  5
A3
330
1F
100
AcDbEntity
  8
0
  6
Continuous
 62
     1
370
    25
100
AcDbLine
 10
-112.6293208373
 20
162.5851677041
 30
0.0
 11
-112.6293208373
 21
52.5851683001
 31
0.0
  0
LINE
  5
A4
330
1F
100
AcDbEntity
  8
0
  6
Continuous
 62
     7
370
    25
100
AcDbLine
 10
481.7305687389
 20
-4.9148290177
 30
0.0
 11
601.1622171423
 21
-4.9148290177
 31
0.0
  0
LINE
  5
A5
330
1F
100
AcDbEntity
  8
0
  6
Continuous
 62
     7
370
    25
100
AcDbLine
 10
601.1622171423
 20
220.0851650219
 30
0.0
 11
481.7305687389
 21
220.0851650219
 31
0.0
  0
ARC
  5
A6
330
1F
100
AcDbEntity
  8
0
  6
Continuous
 62
     7
370
    25
100
AcDbCircle
 10
481.7305682622
 20
-2.9148319979
 30
0.0
 40
2.000000000000011
100
AcDbArc
 50
238.272345007
 51
270.0
  0
ARC
  5
A7
330
1F
100
AcDbEntity
  8
0
  6
Continuous
 62
     7
370
    25
100
AcDbCircle
 10
481.7305682622
 20
218.0851680021
 30
0.0
 40
2.000000000000006
100
AcDbArc
 50
90.0
 51
121.727654993
  0
LINE
  5
A8
330
1F
100
AcDbEntity
  8
0
  6
Continuous
 62
     7
370
    25
100
AcDbLine
 10
480.6788038036
 20
219.7862849812
 30
0.0
 11
388.64563364
 21
162.88405147
 31
0.0
  0
LINE
  5
A9
330
1F
100
AcDbEntity
  8
0
  6
Continuous
 62
     7
370
    25
100
AcDbLine
 10
388.64563364
 20
52.2862845342
 30
0.0
 11
480.6788038036
 21
-4.615948977
 31
0.0
  0
ARC
  5
AA
330
1F
100
AcDbEntity
  8
0
  6
Continuous
 62
     7
370
    25
100
AcDbCircle
 10
387.5938680292
 20
50.5851680021
 30
0.0
 40
1.999999999999986
100
AcDbArc
 50
58.272345007
 51
90.0
  0
ARC
  5
AB
330
1F
100
AcDbEntity
  8
0
  6
Continuous
 62
     7
370
    25
100
AcDbCircle
 10
387.5938680292
 20
164.5851680021
 30
0.0
 40
2.0
100
AcDbArc
 50
270.0
 51
301.727654993
  0
LINE
  5
AC
330
1F
100
AcDbEntity
  8
0
  6
Continuous
 62
     7
370
    25
100
AcDbLine
 10
306.1622153541
 20
52.5851683001
 30
0.0
 11
387.5938687047
 21
52.5851683001
 31
0.0
  0
LINE
  5
AD
330
1F
100
AcDbEntity
  8
0
  6
Continuous
 62
     7
370
    25
100
AcDbLine
 10
387.5938687047
 20
162.5851677041
 30
0.0
 11
306.1622153541
 21
162.5851677041
 31
0.0
  0
LINE
  5
AE
330
1F
100
AcDbEntity
  8
0
  6
Continuous
 62
     7
370
    25
100
AcDbLine
 10
601.1622171423
 20
107.5851680021
 30
0.0
 11
601.1622171423
 21
220.0851650219
 31
0.0
  0
LINE
  5
AF
330
1F
100
AcDbEntity
  8
0
  6
Continuous
 62
     7
370
    25
100
AcDbLine
 10
601.1622171423
 20
-4.9148290177
 30
0.0
 11
601.1622171423
 21
107.5851680021
 31
0.0
  0
LINE
  5
B0
330
1F
100
AcDbEntity
  8
0
  6
Continuous
 62
     7
370
    25
100
AcDbLine
 10
306.1622153541
 20
107.5851680021
 30
0.0
 11
306.1622153541
 21
162.5851677041
 31
0.0
  0
LINE
  5
B1
330
1F
100
AcDbEntity
  8
0
  6
Continuous
 62
     7
370
    25
100
AcDbLine
 10
306.1622153541
 20
52.5851683001
 30
0.0
 11
306.1622153541
 21
107.5851680021
 31
0.0
  0
LINE
  5
B2
330
1F
100
AcDbEntity
  8
0
  6
Continuous
 62
     1
370
    25
100
AcDbLine
 10
481.7305687389
 20
107.5851680021
 30
0.0
 11
481.7305687389
 21
220.0851650219
 31
0.0
  0
LINE
  5
B3
330
1F
100
AcDbEntity
  8
0
  6
Continuous
 62
     1
370
    25
100
AcDbLine
 10
481.7305687389
 20
-4.9148290177
 30
0.0
 11
481.7305687389
 21
107.5851680021
 31
0.0
  0
LINE
  5
B4
330
1F
100
AcDbEntity
  8
0
  6
Continuous
 62
     1
370
    25
100
AcDbLine
 10
480.6788038036
 20
107.5851680021
 30
0.0
 11
480.6788038036
 21
219.7862849812
 31
0.0
  0
LINE
  5
B5
330
1F
100
AcDbEntity
  8
0
  6
Continuous
 62
     1
370
    25
100
AcDbLine
 10
480.6788038036
 20
-4.615948977
 30
0.0
 11
480.6788038036
 21
107.5851680021
 31
0.0
  0
LINE
  5
B6
330
1F
100
AcDbEntity
  8
0
  6
Continuous
 62
     1
370
    25
100
AcDbLine
 10
388.64563364
 20
107.5851680021
 30
0.0
 11
388.64563364
 21
162.88405147
 31
0.0
  0
LINE
  5
B7
330
1F
100
AcDbEntity
  8
0
  6
Continuous
 62
     1
370
    25
100
AcDbLine
 10
388.64563364
 20
52.2862845342
 30
0.0
 11
388.64563364
 21
107.5851680021
 31
0.0
  0
LINE
  5
B8
330
1F
100
AcDbEntity
  8
0
  6
Continuous
 62
     1
370
    25
100
AcDbLine
 10
387.5938687047
 20
107.5851680021
 30
0.0
 11
387.5938687047
 21
162.5851677041
 31
0.0
  0
LINE
  5
B9
330
1F
100
AcDbEntity
  8
0
  6
Continuous
 62
     1
370
    25
100
AcDbLine
 10
387.5938687047
 20
52.5851683001
 30
0.0
 11
387.5938687047
 21
107.5851680021
 31
0.0
  0
LINE
  5
BA
330
1F
100
AcDbEntity
  8
0
  6
Continuous
 62
     7
370
    25
100
AcDbLine
 10
251.8950011128
 20
414.4065047395
 30
0.0
 11
251.8950011128
 21
533.8381531429
 31
0.0
  0
LINE
  5
BB
330
1F
100
AcDbEntity
  8
0
  6
Continuous
 62
     7
370
    25
100
AcDbLine
 10
26.8950070733
 20
533.8381531429
 30
0.0
 11
26.8950070733
 21
414.4065047395
 31
0.0
  0
ARC
  5
BC
330
1F
100
AcDbEntity
  8
0
  6
Continuous
 62
     7
370
    25
100
AcDbCircle
 10
249.895004093
 20
414.4065042629
 30
0.0
 40
2.00000000000006
100
AcDbArc
 50
328.272345007
 51
0.0
  0
ARC
  5
BD
330
1F
100
AcDbEntity
  8
0
  6
Continuous
 62
     7
370
    25
100
AcDbCircle
 10
28.895004093
 20
414.4065042629
 30
0.0
 40
2.000000000000039
100
AcDbArc
 50
180.0
 51
211.727654993
  0
LINE
  5
BE
330
1F
100
AcDbEntity
  8
0
  6
Continuous
 62
     7
370
    25
100
AcDbLine
 10
27.1938871139
 20
413.3547398042
 30
0.0
 11
84.0961206251
 21
321.3215696406
 31
0.0
  0
LINE
  5
BF
330
1F
100
AcDbEntity
  8
0
  6
Continuous
 62
     7
370
    25
100
AcDbLine
 10
194.693887561
 20
321.3215696406
 30
0.0
 11
251.5961210722
 21
413.3547398042
 31
0.0
  0
ARC
  5
C0
330
1F
100
AcDbEntity
  8
0
  6
Continuous
 62
     7
370
    25
100
AcDbCircle
 10
196.395004093
 20
320.2698040298
 30
0.0
 40
1.999999999999976
100
AcDbArc
 50
148.272345007
 51
180.0
  0
ARC
  5
C1
330
1F
100
AcDbEntity
  8
0
  6
Continuous
 62
     7
370
    25
100
AcDbCircle
 10
82.395004093
 20
320.2698040298
 30
0.0
 40
1.999999999999989
100
AcDbArc
 50
0.0
 51
31.727654993
  0
LINE
  5
C2
330
1F
100
AcDbEntity
  8
0
  6
Continuous
 62
     7
370
    25
100
AcDbLine
 10
194.395003795
 20
238.8381513548
 30
0.0
 11
194.395003795
 21
320.2698047054
 31
0.0
  0
LINE
  5
C3
330
1F
100
AcDbEntity
  8
0
  6
Continuous
 62
     7
370
    25
100
AcDbLine
 10
84.3950043911
 20
320.2698047054
 30
0.0
 11
84.3950043911
 21
238.8381513548
 31
0.0
  0
LINE
  5
C4
330
1F
100
AcDbEntity
  8
0
  6
Continuous
 62
     7
370
    25
100
AcDbLine
 10
251.8950011128
 20
533.8381531429
 30
0.0
 11
26.8950070733
 21
533.8381531429
 31
0.0
  0
LINE
  5
C5
330
1F
100
AcDbEntity
  8
0
  6
Continuous
 62
     7
370
    25
100
AcDbLine
 10
194.395003795
 20
238.8381513548
 30
0.0
 11
84.3950043911
 21
238.8381513548
 31
0.0
  0
LINE
  5
C6
330
1F
100
AcDbEntity
  8
0
  6
Continuous
 62
     1
370
    25
100
AcDbLine
 10
251.8950011128
 20
414.4065047395
 30
0.0
 11
26.8950070733
 21
414.4065047395
 31
0.0
  0
LINE
  5
C7
330
1F
100
AcDbEntity
  8
0
  6
Continuous
 62
     1
370
    25
100
AcDbLine
 10
251.5961210722
 20
413.3547398042
 30
0.0
 11
27.1938871139
 21
413.3547398042
 31
0.0
  0
LINE
  5
C8
330
1F
100
AcDbEntity
  8
0
  6
Continuous
 62
     1
370
    25
100
AcDbLine
 10
194.693887561
 20
321.3215696406
 30
0.0
 11
84.0961206251
 21
321.3215696406
 31
0.0
  0
LINE
  5
C9
330
1F
100
AcDbEntity
  8
0
  6
Continuous
 62
     1
370
    25
100
AcDbLine
 10
194.395003795
 20
320.2698047054
 30
0.0
 11
84.3950043911
 21
320.2698047054
 31
0.0
  0
LINE
  5
CA
330
1F
100
AcDbEntity
  8
0
  6
Continuous
 62
     7
370
    25
100
AcDbLine
 10
26.8950070733
 20
-203.1116236607
 30
0.0
 11
26.8950070733
 21
-322.5432720641
 31
0.0
  0
LINE
  5
CB
330
1F
100
AcDbEntity
  8
0
  6
Continuous
 62
     7
370
    25
100
AcDbLine
 10
251.8950011128
 20
-322.5432720641
 30
0.0
 11
251.8950011128
 21
-203.1116236607
 31
0.0
  0
ARC
  5
CC
330
1F
100
AcDbEntity
  8
0
  6
Continuous
 62
     7
370
    25
100
AcDbCircle
 10
28.895004093
 20
-203.111623184
 30
0.0
 40
2.000000000000004
100
AcDbArc
 50
148.272345007
 51
180.0
  0
ARC
  5
CD
330
1F
100
AcDbEntity
  8
0
  6
Continuous
 62
     7
370
    25
100
AcDbCircle
 10
249.895004093
 20
-203.111623184
 30
0.0
 40
2.000000000000028
100
AcDbArc
 50
0.0
 51
31.727654993
  0
LINE
  5
CE
330
1F
100
AcDbEntity
  8
0
  6
Continuous
 62
     7
370
    25
100
AcDbLine
 10
251.5961210722
 20
-202.0598587254
 30
0.0
 11
194.693887561
 21
-110.0266885618
 31
0.0
  0
LINE
  5
CF
330
1F
100
AcDbEntity
  8
0
  6
Continuous
 62
     7
370
    25
100
AcDbLine
 10
84.0961206251
 20
-110.0266885618
 30
0.0
 11
27.1938871139
 21
-202.0598587254
 31
0.0
  0
ARC
  5
D0
330
1F
100
AcDbEntity
  8
0
  6
Continuous
 62
     7
370
    25
100
AcDbCircle
 10
82.395004093
 20
-108.974922951
 30
0.0
 40
1.999999999999996
100
AcDbArc
 50
328.272345007
 51
0.0
  0
ARC
  5
D1
330
1F
100
AcDbEntity
  8
0
  6
Continuous
 62
     7
370
    25
100
AcDbCircle
 10
196.395004093
 20
-108.974922951
 30
0.0
 40
1.999999999999984
100
AcDbArc
 50
180.0
 51
211.727654993
  0
LINE
  5
D2
330
1F
100
AcDbEntity
  8
0
  6
Continuous
 62
     7
370
    25
100
AcDbLine
 10
84.3950043911
 20
-27.543270276
 30
0.0
 11
84.3950043911
 21
-108.9749236265
 31
0.0
  0
LINE
  5
D3
330
1F
100
AcDbEntity
  8
0
  6
Continuous
 62
     7
370
    25
100
AcDbLine
 10
194.395003795
 20
-108.9749236265
 30
0.0
 11
194.395003795
 21
-27.543270276
 31
0.0
  0
LINE
  5
D4
330
1F
100
AcDbEntity
  8
0
  6
Continuous
 62
     7
370
    25
100
AcDbLine
 10
26.8950070733
 20
-322.5432720641
 30
0.0
 11
251.8950011128
 21
-322.5432720641
 31
0.0
  0
LINE
  5
D5
330
1F
100
AcDbEntity
  8
0
  6
Continuous
 62
     7
370
    25
100
AcDbLine
 10
84.3950043911
 20
-27.543270276
 30
0.0
 11
194.395003795
 21
-27.543270276
 31
0.0
  0
LINE
  5
D6
330
1F
100
AcDbEntity
  8
0
  6
Continuous
 62
     1
370
    25
100
AcDbLine
 10
26.8950070733
 20
-203.1116236607
 30
0.0
 11
251.8950011128
 21
-203.1116236607
 31
0.0
  0
LINE
  5
D7
330
1F
100
AcDbEntity
  8
0
  6
Continuous
 62
     1
370
    25
100
AcDbLine
 10
27.1938871139
 20
-202.0598587254
 30
0.0
 11
251.5961210722
 21
-202.0598587254
 31
0.0
  0
LINE
  5
D8
330
1F
100
AcDbEntity
  8
0
  6
Continuous
 62
     1
370
    25
100
AcDbLine
 10
84.0961206251
 20
-110.0266885618
 30
0.0
 11
194.693887561
 21
-110.0266885618
 31
0.0
  0
LINE
  5
D9
330
1F
100
AcDbEntity
  8
0
  6
Continuous
 62
     1
370
    25
100
AcDbLine
 10
84.3950043911
 20
-108.9749236265
 30
0.0
 11
194.395003795
 21
-108.9749236265
 31
0.0
  0
LINE
  5
DA
330
1F
100
AcDbEntity
  8
0
  6
Continuous
 62
     7
370
    25
100
AcDbLine
 10
503.944250926
 20
-85.645803411
 30
0.0
 11
419.4933224516
 21
-36.8933201285
 31
0.0
  0
LINE
  5
DB
330
1F
100
AcDbEntity
  8
0
  6
Continuous
 62
     7
370
    25
100
AcDbLine
 10
307.0024670821
 20
-231.7543190609
 30
0.0
 11
391.4533955565
 21
-280.5068023433
 31
0.0
  0
SPLINE
  5
DC
330
1F
100
AcDbEntity
  8
0
  6
Continuous
 62
     7
370
    25
100
AcDbSpline
210
0.0
220
0.0
230
1.0
 70
     8
 71
     3
 72
    12
 73
     8
 74
     0
 42
0.000000001
 43
0.00000001
 40
0.0
 40
0.0
 40
0.0
 40
0.0
 40
0.1151549836726619
 40
0.3528949110447351
 40
0.5900749525580496
 40
0.8266847017064649
 40
0.9999999999999999
 40
0.9999999999999999
 40
0.9999999999999999
 40
0.9999999999999999
 10
518.8295642475831
 20
-100.6148362829045
 30
0.0
 10
518.5416269540069
 20
-100.1242897974884
 30
0.0
 10
517.6592369578271
 20
-98.62099959837465
 30
0.0
 10
515.9977198669075
 20
-96.31532147203393
 30
0.0
 10
513.8559147659773
 20
-93.70746897824957
 30
0.0
 10
511.7690755435174
 20
-91.51082041649742
 30
0.0
 10
510.3336986790147
 20
-90.27928530921005
 30
0.0
 10
509.7268248834579
 20
-89.7585953054876
 30
0.0
  0
SPLINE
  5
DD
330
1F
100
AcDbEntity
  8
0
  6
Continuous
 62
     7
370
    25
100
AcDbSpline
210
0.0
220
0.0
230
1.0
 70
     8
 71
     3
 72
    13
 73
     9
 74
     0
 42
0.000000001
 43
0.00000001
 40
0.0
 40
0.0
 40
0.0
 40
0.0
 40
0.0603155538965991
 40
0.2682190829996915
 40
0.4764309954904434
 40
0.6850514175268769
 40
0.8941390646589048
 40
1.0
 40
1.0
 40
1.0
 40
1.0
 10
397.5945048516748
 20
-283.3435196847529
 30
0.0
 10
397.8864225255173
 20
-283.4587711256777
 30
0.0
 10
399.1845601654977
 20
-283.971286286398
 30
0.0
 10
401.6067377139814
 20
-284.6392367101013
 30
0.0
 10
404.8536206979516
 20
-285.3429603414105
 30
0.0
 10
408.215404963493
 20
-285.7725737469827
 30
0.0
 10
411.0864072515361
 20
-285.9707131271663
 30
0.0
 10
412.864066979746
 20
-285.9292078023512
 30
0.0
 10
413.4615763257757
 20
-285.9152569775148
 30
0.0
  0
LINE
  5
DE
330
1F
100
AcDbEntity
  8
0
  6
Continuous
 62
     7
370
    25
100
AcDbLine
 10
422.5230539252
 20
-285.0583523204
 30
0.0
 11
500.7452656113
 21
-271.1247193573
 31
0.0
  0
LINE
  5
DF
330
1F
100
AcDbEntity
  8
0
  6
Continuous
 62
     7
370
    25
100
AcDbLine
 10
550.4743901213
 20
-184.9820169424
 30
0.0
 11
523.4231571693
 21
-110.2753119996
 31
0.0
  0
LINE
  5
E0
330
1F
100
AcDbEntity
  8
0
  6
Continuous
 62
     7
370
    25
100
AcDbLine
 10
599.3421621223
 20
-207.1113277513
 30
0.0
 11
547.6903352618
 21
-177.2933627979
 31
0.0
  0
LINE
  5
E1
330
1F
100
AcDbEntity
  8
0
  6
Continuous
 62
     7
370
    25
100
AcDbLine
 10
492.6948039798
 20
-272.5587409323
 30
0.0
 11
544.3466308403
 21
-302.3767058857
 31
0.0
  0
LWPOLYLINE
  5
E2
330
1F
100
AcDbEntity
  8
0
  6
Continuous
 62
     7
370
    25
100
AcDbPolyline
 90
      123
 70
   128
 43
0.0
 10
283.6983839907
 20
-180.2467746682
 10
283.8038564791
 20
-175.4570048622
 10
284.1200052582
 20
-170.5581542555
 10
284.6459821225
 20
-165.5632194595
 10
285.3804014945
 20
-160.4854419043
 10
286.3213088141
 20
-155.3382884438
 10
287.4662121488
 20
-150.135410674
 10
288.8120769256
 20
-144.8906000653
 10
290.3553311991
 20
-139.6177681905
 10
292.0918814565
 20
-134.330901099
 10
294.017128423
 20
-129.0440091276
 10
296.1259617933
 20
-123.771123858
 10
298.4127865733
 20
-118.5262190314
 10
300.8715441533
 20
-113.3232135919
 10
303.4957175771
 20
-108.1758895576
 10
306.2783368095
 20
-103.0979072297
 10
309.2120314204
 20
-98.1027321936
 10
312.2890200478
 20
-93.2036109827
 10
315.5011420083
 20
-88.4135284955
 10
318.8398783701
 20
-83.7451958305
 10
322.296378295
 20
-79.2109864092
 10
325.8614748434
 20
-74.8229207689
 10
329.5257113162
 20
-70.5926513555
 10
333.279375499
 20
-66.5313758344
 10
337.1125075647
 20
-62.6498811974
 10
341.0149474886
 20
-58.9584494706
 10
344.9763469023
 20
-55.4668752052
 10
348.9861980696
 20
-52.1844122489
 10
353.033868131
 20
-49.1197722271
 10
357.1086241279
 20
-46.2810735951
 10
361.1996608268
 20
-43.675855994
 10
365.2961287069
 20
-41.3110154238
 10
369.3871654058
 20
-39.192822593
 10
373.4619214028
 20
-37.3269080915
 10
377.5095914641
 20
-35.7182077353
 10
381.5194426314
 20
-34.3709950793
 10
385.4808420451
 20
-33.2888349362
 10
389.383281969
 20
-32.4746054326
 10
393.2164140347
 20
-31.9304599889
 10
396.9700782176
 20
-31.657847094
 10
400.6343146904
 20
-31.6574791274
 10
404.1994112388
 20
-31.9293719081
 10
407.6559111637
 20
-32.4727914625
 10
410.9946475254
 20
-33.2863011765
 10
414.2067694859
 20
-34.3677465886
 10
417.2837581134
 20
-35.7142523498
 10
420.2174527243
 20
-37.3222556862
 10
423.0000719567
 20
-39.1874942335
 10
425.6242453804
 20
-41.305012124
 10
428.0830029605
 20
-43.6691964875
 10
430.3698277404
 20
-46.2737896239
 10
432.4786611107
 20
-49.1118677104
 10
434.4039080773
 20
-52.1759168488
 10
436.1404583347
 20
-55.4578056902
 10
437.6837126081
 20
-58.9488341077
 10
439.0295773849
 20
-62.6397423209
 10
440.1744807196
 20
-66.5207428373
 10
441.1153880392
 20
-70.5815478302
 10
441.8498074112
 20
-74.8113828275
 10
442.3757842756
 20
-79.1990376622
 10
442.6919330546
 20
-83.7328706583
 10
442.797405543
 20
-88.4008645212
 10
442.6919330546
 20
-93.1906343272
 10
442.3757842756
 20
-98.0894849339
 10
441.8498074112
 20
-103.0844197299
 10
441.1153880392
 20
-108.1621972851
 10
440.1744807196
 20
-113.3093507456
 10
439.0295773849
 20
-118.5122285153
 10
437.6837126081
 20
-123.7570391241
 10
436.1404583347
 20
-129.0298709989
 10
434.4039080773
 20
-134.3167380904
 10
432.4786611107
 20
-139.6036300618
 10
430.3698277404
 20
-144.8765153314
 10
428.0830029605
 20
-150.121420158
 10
425.6242453804
 20
-155.3244255975
 10
423.0000719567
 20
-160.4717496318
 10
420.2174527243
 20
-165.5497319597
 10
417.2837581134
 20
-170.5449069958
 10
414.2067694859
 20
-175.4440282067
 10
410.9946475254
 20
-180.2341106939
 10
407.6559111637
 20
-184.9024433589
 10
404.1994112388
 20
-189.4366527802
 10
400.6343146904
 20
-193.8247184205
 10
396.9700782176
 20
-198.0549878339
 10
393.2164140347
 20
-202.116263355
 10
389.383281969
 20
-205.997757992
 10
385.4808420451
 20
-209.6891897188
 10
381.5194426314
 20
-213.1807639842
 10
377.5095914641
 20
-216.4632269405
 10
373.4619214028
 20
-219.5278669623
 10
369.3871654058
 20
-222.3665655943
 10
365.2961287069
 20
-224.9717831954
 10
361.1996608268
 20
-227.3366237656
 10
357.1086241279
 20
-229.4548165964
 10
353.033868131
 20
-231.3207310979
 10
348.9861980696
 20
-232.9294314541
 10
344.9763469023
 20
-234.2766441101
 10
341.0149474886
 20
-235.3588042532
 10
337.1125075647
 20
-236.1730337568
 10
333.279375499
 20
-236.7171792005
 10
329.5257113162
 20
-236.9897920954
 10
325.8614748434
 20
-236.990160062
 10
322.296378295
 20
-236.7182672812
 10
318.8398783701
 20
-236.1748477269
 10
315.5011420083
 20
-235.3613380129
 10
312.2890200478
 20
-234.2798926008
 10
309.2120314204
 20
-232.9333868396
 10
306.2783368095
 20
-231.3253835032
 10
303.4957175771
 20
-229.4601449559
 10
300.8715441533
 20
-227.3426270654
 10
298.4127865733
 20
-224.9784427019
 10
296.1259617933
 20
-222.3738495655
 10
294.017128423
 20
-219.535771479
 10
292.0918814565
 20
-216.4717223406
 10
290.3553311991
 20
-213.1898334992
 10
288.8120769256
 20
-209.6988050817
 10
287.4662121488
 20
-206.0078968685
 10
286.3213088141
 20
-202.1268963521
 10
285.3804014945
 20
-198.0660913592
 10
284.6459821225
 20
-193.8362563619
 10
284.1200052582
 20
-189.4486015272
 10
283.8038564791
 20
-184.9147685311
 10
283.6983839907
 20
-180.2467746682
  0
LWPOLYLINE
  5
E3
330
1F
100
AcDbEntity
  8
0
  6
Continuous
 62
     7
370
    25
100
AcDbPolyline
 90
      111
 70
   128
 43
0.0
 10
298.1940707713
 20
-171.8785928115
 10
298.3001649257
 20
-167.5287344965
 10
298.6181102141
 20
-163.0705650794
 10
299.1468582338
 20
-158.5186343984
 10
299.8846967689
 20
-153.8877812052
 10
300.829207644
 20
-149.1931171914
 10
301.9773194076
 20
-144.4499501869
 10
303.3252809901
 20
-139.6737537387
 10
304.8686933142
 20
-134.8801108394
 10
306.6025303682
 20
-130.0846515718
 10
308.5211339378
 20
-125.3030196475
 10
310.6182452159
 20
-120.5508100522
 10
312.8870206079
 20
-115.8435264612
 10
315.3200686104
 20
-111.1965204057
 10
317.909439274
 20
-106.6249517281
 10
320.6467005949
 20
-102.1437323143
 10
323.5229148069
 20
-97.7674789434
 10
326.5287042363
 20
-93.5104570194
 10
329.6542644725
 20
-89.3865699257
 10
332.8894012465
 20
-85.4092525642
 10
336.2235594068
 20
-81.591485046
 10
339.6458650667
 20
-77.945719691
 10
343.1451572137
 20
-74.4838506126
 10
346.7100206373
 20
-71.2171642902
 10
350.3288254416
 20
-68.1563167597
 10
353.989770509
 20
-65.3112963541
 10
357.6809131348
 20
-62.6913822618
 10
361.3902144668
 20
-60.3051182944
 10
365.1055750669
 20
-58.160286274
 10
368.814876399
 20
-56.2638820826
 10
372.5060190248
 20
-54.622093612
 10
376.1669640921
 20
-53.2402768136
 10
379.7857688964
 20
-52.1229412522
 10
383.3506323201
 20
-51.2737238751
 10
386.8499244671
 20
-50.6953962386
 10
390.2722301269
 20
-50.3898515847
 10
393.6063882873
 20
-50.3580820307
 10
396.8415250612
 20
-50.6001899792
 10
399.9670852974
 20
-51.1153820374
 10
402.9728747269
 20
-51.901993356
 10
405.8490889389
 20
-52.9574404829
 10
408.5863502598
 20
-54.2782852461
 10
411.1757209234
 20
-55.8602301915
 10
413.6087689258
 20
-57.6980988175
 10
415.8775443179
 20
-59.7859100978
 10
417.974655596
 20
-62.1168465497
 10
419.8932591655
 20
-64.6833059439
 10
421.6270962196
 20
-67.4769195594
 10
423.1705085437
 20
-70.4885765199
 10
424.5184701262
 20
-73.7084496523
 10
425.6665818897
 20
-77.1260350303
 10
426.6110927649
 20
-80.7301899998
 10
427.3489313
 20
-84.5091529534
 10
427.8776793196
 20
-88.4506041653
 10
428.1956246081
 20
-92.5416817662
 10
428.3017187625
 20
-96.7690463779
 10
428.1956246081
 20
-101.1189046929
 10
427.8776793196
 20
-105.57707411
 10
427.3489313
 20
-110.129004791
 10
426.6110927649
 20
-114.7598579842
 10
425.6665818897
 20
-119.454521998
 10
424.5184701262
 20
-124.1976890024
 10
423.1705085437
 20
-128.9738854507
 10
421.6270962196
 20
-133.76752835
 10
419.8932591655
 20
-138.5629876176
 10
417.974655596
 20
-143.3446195419
 10
415.8775443179
 20
-148.0968291372
 10
413.6087689258
 20
-152.8041127282
 10
411.1757209234
 20
-157.4511187837
 10
408.5863502598
 20
-162.0226874613
 10
405.8490889389
 20
-166.5039068751
 10
402.9728747269
 20
-170.880160246
 10
399.9670852974
 20
-175.13718217
 10
396.8415250612
 20
-179.2610692636
 10
393.6063882873
 20
-183.2383866252
 10
390.2722301269
 20
-187.0561541434
 10
386.8499244671
 20
-190.7019194984
 10
383.3506323201
 20
-194.1637885768
 10
379.7857688964
 20
-197.4304748992
 10
376.1669640921
 20
-200.4913224297
 10
372.5060190248
 20
-203.3363428353
 10
368.814876399
 20
-205.9562569276
 10
365.1055750669
 20
-208.342520895
 10
361.3902144668
 20
-210.4873529154
 10
357.6809131348
 20
-212.3837571068
 10
353.989770509
 20
-214.0255455774
 10
350.3288254416
 20
-215.4073623758
 10
346.7100206373
 20
-216.5246979372
 10
343.1451572137
 20
-217.3739153143
 10
339.6458650667
 20
-217.9522429508
 10
336.2235594068
 20
-218.2577876047
 10
332.8894012465
 20
-218.2895571587
 10
329.6542644725
 20
-218.0474492102
 10
326.5287042363
 20
-217.532257152
 10
323.5229148069
 20
-216.7456458334
 10
320.6467005949
 20
-215.6901987065
 10
317.909439274
 20
-214.3693539433
 10
315.3200686104
 20
-212.7874089979
 10
312.8870206079
 20
-210.9495403719
 10
310.6182452159
 20
-208.8617290916
 10
308.5211339378
 20
-206.5307926397
 10
306.6025303682
 20
-203.9643332455
 10
304.8686933142
 20
-201.17071963
 10
303.3252809901
 20
-198.1590626695
 10
301.9773194076
 20
-194.9391895371
 10
300.829207644
 20
-191.5216041591
 10
299.8846967689
 20
-187.9174491896
 10
299.1468582338
 20
-184.138486236
 10
298.6181102141
 20
-180.1970350241
 10
298.3001649257
 20
-176.1059574232
 10
298.1940707713
 20
-171.8785928115
  0
ARC
  5
E4
330
1F
100
AcDbEntity
  8
0
  6
Continuous
 62
     7
370
    25
100
AcDbCircle
 10
485.0221327474
 20
-118.402024176
 30
0.0
 40
37.82877945653293
100
AcDbArc
 50
49.5903351479
 51
59.9864826464
  0
ARC
  5
E5
330
1F
100
AcDbEntity
  8
0
  6
Continuous
 62
     7
370
    25
100
AcDbCircle
 10
410.3882045965
 20
-247.6703221635
 30
0.0
 40
37.90463591677882
100
AcDbArc
 50
240.0305556942
 51
249.9213775604
  0
ARC
  5
E6
330
1F
100
AcDbEntity
  8
0
  6
Continuous
 62
     7
370
    25
100
AcDbCircle
 10
461.1887415632
 20
-133.4691479723
 30
0.0
 40
66.36177885937609
100
AcDbArc
 50
4.0123260262
 51
29.4908638415
  0
ARC
  5
E7
330
1F
100
AcDbEntity
  8
0
  6
Continuous
 62
     7
370
    25
100
AcDbCircle
 10
411.4413304296
 20
-220.2543517975
 30
0.0
 40
65.71088928836454
100
AcDbArc
 50
271.919771733
 51
294.1054187698
  0
ARC
  5
E8
330
1F
100
AcDbEntity
  8
0
  6
Continuous
 62
     7
370
    25
100
AcDbCircle
 10
519.1006455
 20
-196.2736601349
 30
0.0
 40
33.34386086738784
100
AcDbArc
 50
9.8306216032
 51
19.7941798875
  0
ARC
  5
E9
330
1F
100
AcDbEntity
  8
0
  6
Continuous
 62
     7
370
    25
100
AcDbCircle
 10
494.8094925475
 20
-238.282301943
 30
0.0
 40
33.37450798858251
100
AcDbArc
 50
280.2447571575
 51
289.0808092433
  0
LWPOLYLINE
  5
EA
330
1F
100
AcDbEntity
  8
0
  6
Continuous
 62
     7
370
    25
100
AcDbPolyline
 90
       45
 70
   128
 43
0.0
 10
599.3421621223
 20
-207.1113277513
 10
599.5973191432
 20
-207.26138798
 10
601.533621755
 20
-208.5963265314
 10
603.3077749038
 20
-210.1833098558
 10
604.9100821803
 20
-212.0136692873
 10
606.3317981136
 20
-214.0774054394
 10
607.5651571466
 20
-216.3632475233
 10
608.6034210521
 20
-218.8587126688
 10
609.4409184447
 20
-221.5501728487
 10
610.0730790255
 20
-224.4229240842
 10
610.4964467529
 20
-227.4612796027
 10
610.7087088187
 20
-230.6486445561
 10
610.7087088187
 20
-233.9676091787
 10
610.4964467529
 20
-237.4000466968
 10
610.0730790255
 20
-240.9272121888
 10
609.4409184447
 20
-244.5298404951
 10
608.6034210521
 20
-248.1882545823
 10
607.5651571466
 20
-251.8824737168
 10
606.3317981136
 20
-255.5923218294
 10
604.9100821803
 20
-259.2975362581
 10
603.3077749038
 20
-262.9778802932
 10
601.533621755
 20
-266.6132572419
 10
599.5973191432
 20
-270.1838032025
 10
597.509438025
 20
-273.670028503
 10
595.2813843911
 20
-277.0528830973
 10
592.9253241929
 20
-280.3138942019
 10
590.4541293412
 20
-283.4352522232
 10
587.8812934131
 20
-286.399908089
 10
585.2208697484
 20
-289.1916698211
 10
582.4873891316
 20
-291.7952926427
 10
579.6957794495
 20
-294.1965527357
 10
576.8612886419
 20
-296.3823373482
 10
573.9993971144
 20
-298.3407075248
 10
571.1257357501
 20
-300.0609667303
 10
568.2559993111
 20
-301.5337230097
 10
565.405861486
 20
-302.7509289043
 10
562.590889279
 20
-303.7059369577
 10
559.8264557532
 20
-304.3935318369
 10
557.127660017
 20
-304.809958272
 10
554.5092422723
 20
-304.9529427214
 10
551.9855034714
 20
-304.8217032502
 10
549.570226951
 20
-304.4169582684
 10
547.2766033576
 20
-303.7409151163
 10
545.117162159
 20
-302.7972670172
 10
544.3466308403
 20
-302.3767058857
  0
LWPOLYLINE
  5
EB
330
1F
100
AcDbEntity
  8
0
  6
Continuous
 62
     1
370
    25
100
AcDbPolyline
 90
       59
 70
   128
 43
0.0
 10
509.5445766421
 20
-89.5980956141
 10
510.0751738548
 20
-90.0574954065
 10
512.5339314348
 20
-92.42167977
 10
514.8207562148
 20
-95.0262729063
 10
516.9295895851
 20
-97.8643509929
 10
518.8548365516
 20
-100.9284001313
 10
520.591386809
 20
-104.2102889727
 10
522.1346410825
 20
-107.7013173901
 10
523.4805058593
 20
-111.3922256034
 10
524.625409194
 20
-115.2732261198
 10
525.5663165136
 20
-119.3340311127
 10
526.3007358856
 20
-123.5638661099
 10
526.8267127499
 20
-127.9515209446
 10
527.142861529
 20
-132.4853539407
 10
527.2483340174
 20
-137.1533478037
 10
527.142861529
 20
-141.9431176096
 10
526.8267127499
 20
-146.8419682164
 10
526.3007358856
 20
-151.8369030124
 10
525.5663165136
 20
-156.9146805676
 10
524.625409194
 20
-162.0618340281
 10
523.4805058593
 20
-167.2647117978
 10
522.1346410825
 20
-172.5095224066
 10
520.591386809
 20
-177.7823542814
 10
518.8548365516
 20
-183.0692213729
 10
516.9295895851
 20
-188.3561133443
 10
514.8207562148
 20
-193.6289986138
 10
512.5339314348
 20
-198.8739034405
 10
510.0751738548
 20
-204.0769088799
 10
507.451000431
 20
-209.2242329143
 10
504.6683811986
 20
-214.3022152422
 10
501.7346865877
 20
-219.2973902783
 10
498.6576979603
 20
-224.1965114892
 10
495.4455759998
 20
-228.9865939763
 10
492.106839638
 20
-233.6549266414
 10
488.6503397131
 20
-238.1891360627
 10
485.0852431647
 20
-242.577201703
 10
481.4210066919
 20
-246.8074711163
 10
477.6673425091
 20
-250.8687466375
 10
473.8342104434
 20
-254.7502412744
 10
469.9317705195
 20
-258.4416730013
 10
465.9703711058
 20
-261.9332472666
 10
461.9605199384
 20
-265.215710223
 10
457.9128498771
 20
-268.2803502447
 10
453.8380938802
 20
-271.1190488767
 10
449.7470571813
 20
-273.7242664779
 10
445.6505893012
 20
-276.089107048
 10
441.5595526023
 20
-278.2072998788
 10
437.4847966053
 20
-280.0732143804
 10
433.437126544
 20
-281.6819147366
 10
429.4272753767
 20
-283.0291273926
 10
425.465875963
 20
-284.1112875356
 10
421.5634360391
 20
-284.9255170392
 10
417.7303039734
 20
-285.4696624829
 10
413.9766397905
 20
-285.7422753779
 10
410.3124033177
 20
-285.7426433444
 10
406.7473067693
 20
-285.4707505637
 10
403.2908068444
 20
-284.9273310093
 10
399.9520704827
 20
-284.1138212953
 10
397.3751910913
 20
-283.2712056286
  0
ARC
  5
EC
330
1F
100
AcDbEntity
  8
0
  6
Continuous
 62
     1
370
    25
100
AcDbCircle
 10
534.2078659786
 20
-233.0169101766
 30
0.0
 40
153.7328637228975
100
AcDbArc
 50
135.7393208089
 51
164.2660557755
  0
LWPOLYLINE
  5
ED
330
1F
100
AcDbEntity
  8
0
  6
Continuous
 62
     1
370
    25
100
AcDbPolyline
 90
       36
 70
   128
 43
0.0
 10
527.3878690619
 20
-128.8257427792
 10
527.6755054979
 20
-133.0490981548
 10
527.7807040318
 20
-137.7046865609
 10
527.6755054979
 20
-142.4817346089
 10
527.3601996558
 20
-147.3675684514
 10
526.8356189059
 20
-152.349233301
 10
526.1031488256
 20
-157.4135219483
 10
525.1647439751
 20
-162.546997958
 10
524.0228804818
 20
-167.7360568814
 10
522.6805929188
 20
-172.9669331038
 10
521.1414374264
 20
-178.2257545949
 10
519.4095022489
 20
-183.4985748489
 10
517.4893708561
 20
-188.7714200298
 10
515.3861430166
 20
-194.030295057
 10
513.1053873829
 20
-199.261268773
 10
510.6531625643
 20
-204.4504526519
 10
508.035964444
 20
-209.5841011762
 10
505.2607367152
 20
-214.6485875022
 10
502.3348340029
 20
-219.6304977548
 10
499.2660218641
 20
-224.5166006082
 10
496.0624346404
 20
-229.2939567893
 10
492.7325701902
 20
-233.9498856161
 10
489.28525301
 20
-238.4720532087
 10
485.7296289658
 20
-242.8484511952
 10
482.0751257808
 20
-247.0674864431
 10
478.331434596
 20
-251.1179673689
 10
474.5084836284
 20
-254.9891556471
 10
470.6164118292
 20
-258.6707814174
 10
466.6655385909
 20
-262.1530790232
 10
462.6663400396
 20
-265.4268189488
 10
458.6294240101
 20
-268.4833161826
 10
454.5654931677
 20
-271.3144758407
 10
450.4853257459
 20
-273.9127738692
 10
446.3997409724
 20
-276.2713317557
 10
442.3195735506
 20
-278.3838947589
 10
438.2787609132
 20
-280.2349594645
  0
LWPOLYLINE
  5
EE
330
1F
100
AcDbEntity
  8
0
  6
Continuous
 62
     1
370
    25
100
AcDbPolyline
 90
       29
 70
   128
 43
0.0
 10
551.9549114449
 20
-190.5806585741
 10
551.9562390706
 20
-190.5880853793
 10
552.3819064355
 20
-193.6429526641
 10
552.5953249054
 20
-196.8476370782
 10
552.5953249054
 20
-200.1846379795
 10
552.3819064355
 20
-203.6357301141
 10
551.9562390706
 20
-207.1820624773
 10
551.3206435216
 20
-210.8042678179
 10
550.4785942694
 20
-214.4825630198
 10
549.4346879546
 20
-218.1968578452
 10
548.1946302068
 20
-221.9268652005
 10
546.7651855952
 20
-225.6522159614
 10
545.1541697261
 20
-229.3525608743
 10
543.3703781199
 20
-233.0076891817
 10
541.4235519669
 20
-236.5976426888
 10
539.3243254439
 20
-240.1028100553
 10
537.0841624936
 20
-243.5040499851
 10
534.7153001901
 20
-246.7827817156
 10
532.2306749818
 20
-249.9211006016
 10
529.6438581538
 20
-252.9018701246
 10
526.9689768029
 20
-255.7088040162
 10
524.2206413976
 20
-258.3265719548
 10
521.4138614843
 20
-260.7408816885
 10
518.5639673206
 20
-262.9385455674
 10
515.686523606
 20
-264.9075577233
 10
512.7972459289
 20
-266.637166638
 10
509.9119147443
 20
-268.1179248032
 10
507.0462886109
 20
-269.3417448915
 10
505.7196651875
 20
-269.8231630036
  0
ARC
  5
EF
330
1F
100
AcDbEntity
  8
0
  6
Continuous
 62
     1
370
    25
100
AcDbCircle
 10
536.4300188103
 20
-234.299733515
 30
0.0
 40
153.7126027111453
100
AcDbArc
 50
137.8282399619
 51
162.1771363657
  0
LWPOLYLINE
  5
F0
330
1F
100
AcDbEntity
  8
0
  6
Continuous
 62
     1
370
    25
100
AcDbPolyline
 90
       35
 70
   128
 43
0.0
 10
549.3489191179
 20
-181.8738344557
 10
549.9842828592
 20
-183.122516346
 10
551.0225467646
 20
-185.6179814915
 10
551.8600441572
 20
-188.3094416714
 10
552.492204738
 20
-191.1821929069
 10
552.9155724655
 20
-194.2205484254
 10
553.1278345313
 20
-197.4079133788
 10
553.1278345313
 20
-200.7268780014
 10
552.9155724655
 20
-204.1593155195
 10
552.492204738
 20
-207.6864810116
 10
551.8600441572
 20
-211.2891093178
 10
551.0225467646
 20
-214.947523405
 10
549.9842828592
 20
-218.6417425395
 10
548.7509238261
 20
-222.3515906521
 10
547.3292078929
 20
-226.0568050809
 10
545.7269006164
 20
-229.7371491159
 10
543.9527474675
 20
-233.3725260647
 10
542.0164448558
 20
-236.9430720253
 10
539.9285637375
 20
-240.4292973257
 10
537.7005101037
 20
-243.81215192
 10
535.3444499055
 20
-247.0731630246
 10
532.8732550538
 20
-250.194521046
 10
530.3004191257
 20
-253.1591769118
 10
527.639995461
 20
-255.9509386438
 10
524.9065148441
 20
-258.5545614654
 10
522.1149051621
 20
-260.9558215584
 10
519.2804143545
 20
-263.1416061709
 10
516.4185228269
 20
-265.0999763475
 10
513.5448614627
 20
-266.8202355531
 10
510.6751250237
 20
-268.2929918324
 10
507.8249871985
 20
-269.5101977271
 10
505.0100149916
 20
-270.4652057804
 10
502.2455814658
 20
-271.1528006596
 10
499.5467857296
 20
-271.5692270947
 10
497.4908203124
 20
-271.7044300321
  0
ENDSEC
  0
SECTION
  2
OBJECTS
  0
DICTIONARY
  5
C
330
0
100
AcDbDictionary
281
     1
  3
ACAD_GROUP
350
D
  3
ACAD_LAYOUT
350
1A
  3
ACAD_MLINESTYLE
350
17
  3
ACAD_PLOTSETTINGS
350
19
  3
ACAD_PLOTSTYLENAME
350
E
  3
ACAD_SCALELIST
350
47
  0
DICTIONARY
  5
D
102
{ACAD_REACTORS
330
C
102
}
330
C
100
AcDbDictionary
281
     1
  0
DICTIONARY
  5
1A
102
{ACAD_REACTORS
330
C
102
}
330
C
100
AcDbDictionary
281
     1
  3
Layout1
350
1E
  3
Layout2
350
26
  3
Model
350
22
  0
DICTIONARY
  5
17
102
{ACAD_REACTORS
330
C
102
}
330
C
100
AcDbDictionary
281
     1
  3
Standard
350
18
  0
DICTIONARY
  5
19
102
{ACAD_REACTORS
330
C
102
}
330
C
100
AcDbDictionary
281
     1
  0
ACDBDICTIONARYWDFLT
  5
E
102
{ACAD_REACTORS
330
C
102
}
330
C
100
AcDbDictionary
281
     1
  3
Normal
350
F
100
AcDbDictionaryWithDefault
340
F
  0
DICTIONARY
  5
47
102
{ACAD_REACTORS
330
C
102
}
330
C
100
AcDbDictionary
281
     1
  3
A0
350
48
  3
A1
350
49
  3
A2
350
4A
  3
A3
350
4B
  3
A4
350
4C
  3
A5
350
4D
  3
A6
350
4E
  3
A7
350
4F
  3
A8
350
50
  3
A9
350
51
  3
B0
350
52
  3
B1
350
53
  3
B2
350
54
  3
B3
350
55
  3
B4
350
56
  3
B5
350
57
  3
B6
350
58
  3
B7
350
59
  3
B8
350
5A
  3
B9
350
5B
  3
C0
350
5C
  3
C1
350
5D
  3
C2
350
5E
  3
C3
350
5F
  3
C4
350
60
  3
C5
350
61
  3
C6
350
62
  3
C7
350
63
  3
C8
350
64
  3
C9
350
65
  3
D0
350
66
  3
D1
350
67
  3
D2
350
68
  0
LAYOUT
  5
1E
102
{ACAD_REACTORS
330
1A
102
}
330
1A
100
AcDbPlotSettings
  1

  2
none_device
  4

  6

 40
0.0
 41
0.0
 42
0.0
 43
0.0
 44
0.0
 45
0.0
 46
0.0
 47
0.0
 48
0.0
 49
0.0
140
0.0
141
0.0
142
1.0
143
1.0
 70
   688
 72
     1
 73
     0
 74
     5
  7

 75
    16
147
1.0
148
0.0
149
0.0
100
AcDbLayout
  1
Layout1
 70
     1
 71
     1
 10
0.0
 20
0.0
 11
420.0
 21
297.0
 12
0.0
 22
0.0
 32
0.0
 14
1.0000000000E+20
 24
1.0000000000E+20
 34
1.0000000000E+20
 15
-1.0000000000E+20
 25
-1.0000000000E+20
 35
-1.0000000000E+20
146
0.0
 13
0.0
 23
0.0
 33
0.0
 16
1.0
 26
0.0
 36
0.0
 17
0.0
 27
1.0
 37
0.0
 76
     0
330
1B
  0
LAYOUT
  5
26
102
{ACAD_REACTORS
330
1A
102
}
330
1A
100
AcDbPlotSettings
  1

  2
none_device
  4

  6

 40
0.0
 41
0.0
 42
0.0
 43
0.0
 44
0.0
 45
0.0
 46
0.0
 47
0.0
 48
0.0
 49
0.0
140
0.0
141
0.0
142
1.0
143
1.0
 70
   688
 72
     1
 73
     0
 74
     5
  7

 75
    16
147
1.0
148
0.0
149
0.0
100
AcDbLayout
  1
Layout2
 70
     1
 71
     2
 10
0.0
 20
0.0
 11
0.0
 21
0.0
 12
0.0
 22
0.0
 32
0.0
 14
0.0
 24
0.0
 34
0.0
 15
0.0
 25
0.0
 35
0.0
146
0.0
 13
0.0
 23
0.0
 33
0.0
 16
1.0
 26
0.0
 36
0.0
 17
0.0
 27
1.0
 37
0.0
 76
     0
330
23
  0
LAYOUT
  5
22
102
{ACAD_REACTORS
330
1A
102
}
330
1A
100
AcDbPlotSettings
  1

  2
none_device
  4
Letter_(8.50_x_11.00_Inches)
  6

 40
6.35
 41
6.35
 42
6.35000508
 43
6.35000508
 44
215.9
 45
279.4
 46
0.0
 47
0.0
 48
0.0
 49
0.0
140
0.0
141
0.0
142
1.0
143
1.0
 70
  1712
 72
     1
 73
     0
 74
     0
  7

 75
     0
147
1.0
148
0.0
149
0.0
100
AcDbLayout
  1
Model
 70
     1
 71
     0
 10
0.0
 20
0.0
 11
279.4
 21
215.9
 12
0.0
 22
0.0
 32
0.0
 14
0.0
 24
0.0
 34
0.0
 15
279.4
 25
215.9
 35
0.0
146
0.0
 13
0.0
 23
0.0
 33
0.0
 16
1.0
 26
0.0
 36
0.0
 17
0.0
 27
1.0
 37
0.0
 76
     0
330
1F
331
29
  0
MLINESTYLE
  5
18
102
{ACAD_REACTORS
330
17
102
}
330
17
100
AcDbMlineStyle
  2
Standard
 70
     0
  3

 62
   256
 51
90.0
 52
90.0
 71
     2
 49
0.5
 62
   256
  6
BYLAYER
 49
-0.5
 62
   256
  6
BYLAYER
  0
ACDBPLACEHOLDER
  5
F
102
{ACAD_REACTORS
330
E
102
}
330
E
  0
SCALE
  5
48
102
{ACAD_REACTORS
330
47
102
}
330
47
100
AcDbScale
 70
     0
300
1:1
140
1.0
141
1.0
290
     1
  0
SCALE
  5
49
102
{ACAD_REACTORS
330
47
102
}
330
47
100
AcDbScale
 70
     0
300
1:2
140
1.0
141
2.0
290
     0
  0
SCALE
  5
4A
102
{ACAD_REACTORS
330
47
102
}
330
47
100
AcDbScale
 70
     0
300
1:4
140
1.0
141
4.0
290
     0
  0
SCALE
  5
4B
102
{ACAD_REACTORS
330
47
102
}
330
47
100
AcDbScale
 70
     0
300
1:5
140
1.0
141
5.0
290
     0
  0
SCALE
  5
4C
102
{ACAD_REACTORS
330
47
102
}
330
47
100
AcDbScale
 70
     0
300
1:8
140
1.0
141
8.0
290
     0
  0
SCALE
  5
4D
102
{ACAD_REACTORS
330
47
102
}
330
47
100
AcDbScale
 70
     0
300
1:10
140
1.0
141
10.0
290
     0
  0
SCALE
  5
4E
102
{ACAD_REACTORS
330
47
102
}
330
47
100
AcDbScale
 70
     0
300
1:16
140
1.0
141
16.0
290
     0
  0
SCALE
  5
4F
102
{ACAD_REACTORS
330
47
102
}
330
47
100
AcDbScale
 70
     0
300
1:20
140
1.0
141
20.0
290
     0
  0
SCALE
  5
50
102
{ACAD_REACTORS
330
47
102
}
330
47
100
AcDbScale
 70
     0
300
1:30
140
1.0
141
30.0
290
     0
  0
SCALE
  5
51
102
{ACAD_REACTORS
330
47
102
}
330
47
100
AcDbScale
 70
     0
300
1:40
140
1.0
141
40.0
290
     0
  0
SCALE
  5
52
102
{ACAD_REACTORS
330
47
102
}
330
47
100
AcDbScale
 70
     0
300
1:50
140
1.0
141
50.0
290
     0
  0
SCALE
  5
53
102
{ACAD_REACTORS
330
47
102
}
330
47
100
AcDbScale
 70
     0
300
1:100
140
1.0
141
100.0
290
     0
  0
SCALE
  5
54
102
{ACAD_REACTORS
330
47
102
}
330
47
100
AcDbScale
 70
     0
300
2:1
140
2.0
141
1.0
290
     0
  0
SCALE
  5
55
102
{ACAD_REACTORS
330
47
102
}
330
47
100
AcDbScale
 70
     0
300
4:1
140
4.0
141
1.0
290
     0
  0
SCALE
  5
56
102
{ACAD_REACTORS
330
47
102
}
330
47
100
AcDbScale
 70
     0
300
8:1
140
8.0
141
1.0
290
     0
  0
SCALE
  5
57
102
{ACAD_REACTORS
330
47
102
}
330
47
100
AcDbScale
 70
     0
300
10:1
140
10.0
141
1.0
290
     0
  0
SCALE
  5
58
102
{ACAD_REACTORS
330
47
102
}
330
47
100
AcDbScale
 70
     0
300
100:1
140
100.0
141
1.0
290
     0
  0
SCALE
  5
59
102
{ACAD_REACTORS
330
47
102
}
330
47
100
AcDbScale
 70
     0
300
1/128" = 1'-0"
140
0.0078125
141
12.0
290
     0
  0
SCALE
  5
5A
102
{ACAD_REACTORS
330
47
102
}
330
47
100
AcDbScale
 70
     0
300
1/64" = 1'-0"
140
0.015625
141
12.0
290
     0
  0
SCALE
  5
5B
102
{ACAD_REACTORS
330
47
102
}
330
47
100
AcDbScale
 70
     0
300
1/32" = 1'-0"
140
0.03125
141
12.0
290
     0
  0
SCALE
  5
5C
102
{ACAD_REACTORS
330
47
102
}
330
47
100
AcDbScale
 70
     0
300
1/16" = 1'-0"
140
0.0625
141
12.0
290
     0
  0
SCALE
  5
5D
102
{ACAD_REACTORS
330
47
102
}
330
47
100
AcDbScale
 70
     0
300
3/32" = 1'-0"
140
0.09375
141
12.0
290
     0
  0
SCALE
  5
5E
102
{ACAD_REACTORS
330
47
102
}
330
47
100
AcDbScale
 70
     0
300
1/8" = 1'-0"
140
0.125
141
12.0
290
     0
  0
SCALE
  5
5F
102
{ACAD_REACTORS
330
47
102
}
330
47
100
AcDbScale
 70
     0
300
3/16" = 1'-0"
140
0.1875
141
12.0
290
     0
  0
SCALE
  5
60
102
{ACAD_REACTORS
330
47
102
}
330
47
100
AcDbScale
 70
     0
300
1/4" = 1'-0"
140
0.25
141
12.0
290
     0
  0
SCALE
  5
61
102
{ACAD_REACTORS
330
47
102
}
330
47
100
AcDbScale
 70
     0
300
3/8" = 1'-0"
140
0.375
141
12.0
290
     0
  0
SCALE
  5
62
102
{ACAD_REACTORS
330
47
102
}
330
47
100
AcDbScale
 70
     0
300
1/2" = 1'-0"
140
0.5
141
12.0
290
     0
  0
SCALE
  5
63
102
{ACAD_REACTORS
330
47
102
}
330
47
100
AcDbScale
 70
     0
300
3/4" = 1'-0"
140
0.75
141
12.0
290
     0
  0
SCALE
  5
64
102
{ACAD_REACTORS
330
47
102
}
330
47
100
AcDbScale
 70
     0
300
1" = 1'-0"
140
1.0
141
12.0
290
     0
  0
SCALE
  5
65
102
{ACAD_REACTORS
330
47
102
}
330
47
100
AcDbScale
 70
     0
300
1-1/2" = 1'-0"
140
1.5
141
12.0
290
     0
  0
SCALE
  5
66
102
{ACAD_REACTORS
330
47
102
}
330
47
100
AcDbScale
 70
     0
300
3" = 1'-0"
140
3.0
141
12.0
290
     0
  0
SCALE
  5
67
102
{ACAD_REACTORS
330
47
102
}
330
47
100
AcDbScale
 70
     0
300
6" = 1'-0"
140
6.0
141
12.0
290
     0
  0
SCALE
  5
68
102
{ACAD_REACTORS
330
47
102
}
330
47
100
AcDbScale
 70
     0
300
1'-0" = 1'-0"
140
12.0
141
12.0
290
     0
  0
ENDSEC
  0
EOF
